User Tools

Site Tools


tabs:days_spent_floating_in_the_halfbetween

days spent floating in the halfbetween

started this the other day, most of the song is alternating between these two chords

2/4, 12 string guitar, standard tuning

         Am
--------|------0-------0|------0-------0|------0-------0|------0--------|
--------|----------1----|----------1----|----------1----|---------------|
-----0--|----2-------2--|----2-------2--|----2-------2--|----2-------0--|
-0h2----|2-------2------|2-------2------|2-------2------|2-------0h2----|
--------|---------------|---------------|---------------|---------------|
--------|---------------|---------------|---------------|---------------|

        G
        |------0-------0|------0-------0|------0-------0|------0-------0|
        |----------3----|----------3----|----------3----|----------3----|
        |0---4---0---4--|0---4---0---4--|0---4---0---4--|0---4---0---4--|
        |---------------|---------------|---------------|---------------|
        |---------------|---------------|---------------|---------------|
        |---------------|---------------|---------------|---------------|
You could leave a comment if you were logged in.
tabs/days_spent_floating_in_the_halfbetween.txt · Last modified: 2016/12/28 18:17 by werig